Bass

Fra Ikkepedia
Gå til: navigasjon, søk
Bass.jpg

{{Sitat|Bassgitar er et instrument du kan spille på for å føle du kan spille et enkelt strengeinstrument. Sitatet er skrevet av Mr.Fantastic.


Historie[rediger]

El*-bassen ble funnet opp en gang på 1950-tallet, og har siden den gang vært flittig brukt i det de lærde kaller "pop-musikk". Det er allmenn tro at bassgitaren ble oppfunnet av Leo Fender, noe som er en blank løgn. Selv om det er uvisst hvem som faktisk oppfant den mener mange det kunner vært Homer Simpson. Bassgitar er mye brukt i irsk folkemusikk og norsk halling.

Bassister[rediger]

Det sies at det finnes mennesker som spille dette instrumentet og at det vist nok er ganske vanlig, og ofte brukt. De fleste bassister er store late mennesker, som alltid kommer for sent til øving.

Gode kjennetegn på bassister kan være:

  • Tonedøv
  • Langt Hår
  • Hullete bukser
  • Sier kunstant: dumm dumm dumm dumm duuuuum, mens vedkommende beveger seg i takt.
  • Har en Gigantisk bart.
  • ølmage.

Bassister med en seksuell undertune, dem får hva som helst til å vibrere

Bass tabs[rediger]

Ofte er bass tabs veldig likt gitar tabs. Det er bare en forskjell. Her er to eksempler:

Bass

G|----------------------------------------------------------------------------------------------|

D|----------------------------------------------------------------------------------------------|

A|----------------------------------------------------------------------------------------------|

E|0-0-0-0-0-0-0-0-0-0-0-0-0-0-0-0-0-0-0-0-0-0-0-0-0-0-0-0-0-0-0-0-0-0-0-|

Gitar

e|--------------------------------------------10-9h10p9------------12^13--12^13--10-9h10p9---------------------|

B|------------------------------10-12------------------------12-10-------------------------------------12---------------|

G|------------------7-9/11--------------------------------------------------------------------------------------------------|

D|----------7-9---------------------------------------------------------------------------------------------------------------|

A|--7/9-----------------------------------------------------------------------------------------------------------------------|

E|----------------------------------------------------------------------------------------------------------------------------|


Gitaren er en liten del av gitarsoloen i "Powerslave" av Iron Maiden. Bassen er en liten del av en hvilken som helst låt som inneholder bassgitar.

Kontrabass[rediger]

Fra gammelt av fantes det ikke forsterkere og sånt, da var instrumentet mye større enn en moderne bass, og måtte plasseres på gulvet i en oppreist possisjon, dette gjor at man måtte være minimun 179cm høy for å kunne spille.
Vi ser alle hvor det gikk galt!