Bass

Fra Ikkepedia
Hopp til: navigasjon, søk
Bass.jpg

«Bassgitar er et instrument du kan spille på for å føle du kan spille et enkelt strengeinstrument.»

- Mr.Fantastic.

«Den hadde bare fire strenger»

- John Deacon om hvorfor han begynte å spille bass

Bass (eller bassgitar om du vil) er et 100% unødvendig musikkinstrument, mest brukt av tonedøve som vil vise for vennene sine at de kan spille et instrument. Den består av fire tjukke strenger, mot gitarens 6 tynne, for å skape en illusjon av at bassen er viktig.


Historie[rediger]

El-bassen ble funnet opp en gang på 1950-tallet, og har siden den gang vært flittig brukt i det de lærde kaller "pop-musikk". Det er allmenn tro at bassgitaren ble oppfunnet av Leo Fender, noe som er en blank løgn. Selv om det er uvisst hvem som faktisk oppfant den mener mange det kunne vært Homer Simpson.

Men den akustiske bassen var brukt helt tilbake på 1700-tallet, da Johan Sebastian Bach la til en bassist i komposisjonene hans for å få publikum til å tro at han var flinkere enn det han egentlig var. Etterhvert fulgte Beethoven etter, han ville jo ikke bli hengende etter på trendene!

Bass-trenden forsvant ca 100 år etter, da publikum oppdaget av bassgitaren var 100% unødvendig og egentlig bare var der for å lure de. Men etterhvert som menneskenes intelligens sank med årene, tok jazzistene på 1910-tallet bassen i bruk, og ingen mennesker skjønte at det var juks og fanteri, akkurat som de hadde spådd.

Bassister[rediger]

Det sies at det finnes mennesker som spiller dette instrumentet og at det visst nok er ganske vanlig, og ofte brukt. De fleste bassister er store late mennesker, som alltid kommer for sent til øving.

Gode kjennetegn på bassister kan være:

  • Tonedøv
  • Langt hår
  • Hullete bukser
  • Sier konstant: dumm dumm dumm dumm duuuuum, mens vedkommende beveger seg i takt.
  • Har en gigantisk bart.
  • Ølmage.

Bassnoter[rediger]

Ofte er bassnoter veldig likt gitarnoter. Men det er en liten forskjell. Her er to eksempler:

Bass

G|------------------------------------------------------------------------------------|

D|------------------------------------------------------------------------------------|

A|3-3-3-3-3-3-3-3----------------------0-0-0-0-0-0-0-0----------------------|

E|---------------------3-3-3-3-3-3-3-3----------------------1-1-1-1-1-1-1-1-|

Gitar

e|--------------------------------------------10-9h10p9------------12^13--12^13--10-9h10p9---------------------|

B|------------------------------10-12------------------------12-10-------------------------------------12---------------|

G|------------------7-9/11--------------------------------------------------------------------------------------------------|

D|----------7-9---------------------------------------------------------------------------------------------------------------|

A|--7/9-----------------------------------------------------------------------------------------------------------------------|

E|----------------------------------------------------------------------------------------------------------------------------|


Gitaren er en liten del av gitarsoloen i "Powerslave" av Iron Maiden. Bassen er en liten del av en hvilken som helst låt som inneholder bassgitar.

Kontrabass[rediger]

Fra gammelt av fantes det ikke forsterkere og sånt, da var instrumentet mye større enn en moderne bass, og måtte plasseres på gulvet i en oppreist possisjon, dette gjor at man måtte være minimun 179cm høy for å kunne spille.

Vi ser alle hvor det gikk galt!